Date: Fri, 17 May 2002 17:34:15 -0700 (PDT)
From: pithan 
From: Michael Jones 
Subject: i/iron_maiden/prowler.tab

intro

|-------------------------------|
|-------------------------------|
|---9-9-9-x-9-x-9-x-9---9-9-9---|
|---9-9-9-x-9-x-9-x-9---9-9-9---|
|---7-7-7-x-7-x-7-x-7---7-7-7---|
|-------------------------------|
 repeat twice, then go to...

|-------------------------------|
|-------------------------------|
|---7-7-7-x-7-x-7-x-7---7-7-7---|
|---7-7-7-x-7-x-7-x-7---7-7-7---|
|---5-5-5-x-5-x-5-x-5---5-5-5---|
|-------------------------------|
 and now start over

after once alone, lead guitar comes in with
this riff done on wah-wah/distortion

|---------------|--------|
|-8-7-8/11-7-8--|--3tr5--|
|---------------|--------|
|---------------|--------|
|---------------|--------|
|---------------|--------|
  ^repeat this^ 
 3 times, then do the trill 


verses: same as intro, but lead guitar
isn't playing with wah.
also, there's a fill in at the end of the 
D power chords, it goes

|-------------|
|-------------|
|-9-7---7-----|
|-----9---9-7-|
|-------------|
|-------------|

pre-chorus

|------------------------------------|
|------------------------------------|
|-11-11-11-x-11-x-11-x-11---11-11-11-|
|-11-11-11-x-11-x-11-x-11---11-11-11-|
|-9--9--9--x-9--x-9--x-9----9--9--9--|
|------------------------------------|
 same rhythm as verse. play it twice, then...

|--------------------|
|--------------------|
|--9-----5--7---9----|
|--9-----5--7---9----|
|--7-----3--5---7----|
|--------------------|

then both guitars play

|--12-10-8-10---8---|
|-------------------|
|-------------------|
|-------------------|
|-------------------|
|-------------------|
 that part's not quite right, but i can't get
anything else good.

repeat all that once more. then go to the chorus.

chorus

rhythm:
|---------------------------|
|---------------------------|
|-5-------------7-----------|
|-5-------------7-----------|
|-3-------------5-----------|
|---------------------------|

lead: with wah
|---------------------------|
|-8-7-5---------8-7-5-------|
|-------7-5-7---------7-5-7-|
|---------------------------|
|---------------------------|
|---------------------------|

repeat verse once, then play chorus again

break:

lead:
|------------------|
|-12-11-9-7-7/9-11-|
|-12-11-9-7-7/9-11-|
|------------------|
|------------------|
 play it twice alone, then rhythm comes in

rhythm:
|------------------|
|------------------|
|-9--------------9-|
|-9----5----7----9-|
|-7----5----7----7-|
|------3----5------|
 these chords are only played once for each time
the lead is repeated. listen to the song, and 
you'll understand. 

do it all together twice, and then you're into 
the solo, which i haven't figured out yet. but, 
other than that, the song's complete. enjoy