Deep Purple - Soldier of Fortune     
=================================
    
    Strombringer 1974

   Gm            Dm                            C                    Gm  
e-----------------------------------------------------------------------------------
B-----10-11/15---13h15p13-11-10h11p10----10----13-11h13p11-10---------11p10---------
G--12---------------------------------12----------------------12--12--------12------
D-----------------------------------------------------------------------------------

Gm                            F 
I have often told you stories about the way
Gm                        Dm
I lived a life of drifter waiting for the day
Gm
When I take your hand and sing you songs
F
Maybe you would say
Gm
Come baby with me and love me
Dm
And I would surely stay

A---5-3-1----

Bb       C                Gm  
But I feel I'm growing older
Eb          F             Bb
And the songs that I have sung
Dm          Gm              F
Echo in the distance like the sound
     Bb             Eb  
of a windmill going round
Cm                Dm              Gm
Guess I'll always be a soldier of fortune

Solo:

   Gm                  C                   Gm                   C   
e---------------------------------------------13-13/15-13/15----------------------
B-------------------------11-11/13-11/13---15------------------(15)r13-11-13------
G-----10-10/12-10/12---12---------------------------------------------------------
D--12-----------------------------------------------------------------------------
A---------------------------------------------------------------------------------
E---------------------------------------------------------------------------------

   Gm                   Bb                       C              Gm   
e-----13-13/15-13/15--------------------------------------------------------------
B--15------------------(15)r13-11-13/15-13/15---(15)r13-11-13---11p10--11p10------
G----------------------------------------------------------------------------12---
D---------------------------------------------------------------------------------
A---------------------------------------------------------------------------------
E---------------------------------------------------------------------------------

Gm                                    F  
Many times I've been a traveller      I looked for something new
Gm                                    Dm  
In days of old when nights were cold  I wandered without you
Gm                                    F 
But those days I thought my eyes      had seen you standing near
Gm                                    Dm
Though blindness is confusing         it shows that you're not here.

A---5-3-1----

Bb       C              Gm  
Now I feel I'm growing older
Eb          F             Bb
And the songs that I have sung
Dm          Gm              F
Echo in the distance like the sound
     Bb             Eb  
of a windmill going round
Cm                Dm              Gm
Guess I'll always be a soldier of fortune

 Gm             F         Bb             Eb
I can hear the sound of a windmill going round
Cm                Dm              Gm
Guess I'll always be a soldier of fortune


Cm                Dm              G ---------> Surprise!
Guess I'll always be a soldier of fortune


  Tabbed by Izel Niyego 
  Any corrections: [email protected]

Articles liés :

Pin It on Pinterest

Spelling error report

The following text will be sent to our editors: