Song- Wash Away Those Years 
Album- Human Clay 
Written By- Creed 
Transcribed By- Waldon Reed Jr. & David Sobka Jr. 
Tuning- DADGBe 
 
Intro. / Verse 
e------------------------------------------------------------------------------- 
B----6---6---6---5-----5h6---5h6---5h6p5-3-----3h5---3h5---3h5---3---2--2h3--3-- 
G----5-----------5-----5-----5-----5-----3-----3-----3-----3-----2---2--2----2-- 
D--0---0---0---0-----0-----0-----0-----0-----0-----0-----0-----0-----------0---- 
A------------------------------------------------------------------------------- 
D------------------------------------------------------------------------------- 
 
Pre Chorus 
e------------------------------------- 
B----3h5---3h5---3h5---3---2-2h3---3-- 
G----3-----3-----3-----2---2--2----2-- 
D--0-----0-----0-----0-----------0---- 
A------------------------------------- 
D------------------------------------- 
 
Chorus 
Clean Tone                                                          |First Time| 
e-------------------------------------------------------------------|----------| 
B-------------------------------------------------------------------|----------| 
G--5--5--5-5-5------5--5-5-5-4-4-4-4-4-4/7--7--7-7-7-7-7------------|--/10--9--| 
D--5--5--5-5-5------5--5-5-5-4-4-4-4-4-4/7--7--7-7-7-7-6--5/6-0--0--|---0---0--| 
A--3--3--3-3-3--3-2-2--2-2-2-2-2-2-2-2-2/5--5--5-5-5-5-6--5/6-0--0--|----------| 
D--3--3--3-3-3--3-2-2--2-2-2-2-2-2-2-2-2/5--5--5-5-5-5-6--5/6-0--0--|----------| 
 
   |       Second Time             | 
e--|-------------------------------| 
B--|-------------------------------| 
G--|---------7--5--0----7----------| 
D--|--0--0-0-0--0--0----5----0-----| 
A--|--0--0-0-0--0-------5----0-----| 
D--|--0--0-0------------5----0-----| 
 
Chorus 
Distortion                                                            |First 3x 
e---------------------------------------------------------------------|--------- 
B---------------------------------------------------------------------|--------- 
G--5--5--5-5-5------5--5-5-5-5-5-5-5-5-5/7--7--7-7-7-----7------------|--/10--10 
D--5--5--5-5-5------5--5-5-5-5-5-5-5-5-5/7--7--7-7-7-----6--5/6-0--0--|---0---0- 
A--3--3--3-3-3--0-0-2--2-2-2-2-2-2-2-2-2/5--5--5-5-5-0-0-6--5/6-0--0--|--------- 
D--3--3--3-3-3--0-0-2--2-2-2-2-2-2-2-2-2/5--5--5-5-5-0-0-6--5/6-0--0--|--------- 
 
      |    Fourth Time              
e-----|------------------------------------------| 
B-----|------------------------------------------| 
G--9--|---------7--5--0----7-----------7---------| 
D--0--|--0--0-0-0--0--0----5----0----5-5---------| 
A-----|--0--0-0-0--0-------5----0----5-5---------| 
D-----|--0--0-0------------5----0----5-5----0----| 
 
 
 
Bridge 
e------------------------------------------------------------------------ 
B------------------------------------------------------------------------ 
G--3--3------------3--3-3-3-------3-3-3/5--5-5-7-5----------------------- 
D--1--1--3/5-3-1p0-3--3-3-3-------3-3-3/5--5-5-7-5-7-x-7--7-7-7-7h8-8-8-- 
A--1--1------------1--1-1-1-1/3\1-1-1-1/3--3-3-----7-x-5--5-5-5-5---5-5-- 
D--1--1------------------------------------------------5--5-5-5-5---5-5-- 
 
              |            Repeat           | 
e-------------|-----------------------------| 
B-------------|-----------------------------| 
G-------------|-----------------------------| 
D--7h8p7p5-7--|7--7-7-7-7h8-8-8--7h8p7p5-7--| 
A-------------|5--5-5-5-5---5-5-------------| 
D-------------|5--5-5-5-5---5-5-------------| 
 
Key 
b = Bend 
r = Release bend 
h = Hammer 
p = Pull off 
/ = Slide