Song- Beautiful 
Album- Human Clay 
Written By- Creed 
Transcribed By- David Sobka Jr. & Waldon Reed Jr. 
Tuning- DADGBe 
 
 
Verse 
e---------------------------------------------------------- 
B---------------------------------------------------------- 
G---------------------------------------------------------- 
D--3-----3h5-----2-----3--------3-----3h5-----2-----3------ 
A------------------------5--------------------------------- 
D----0-0-----0-0---0-0-----0-0----0-0-----0-0---0-0---0-0-- 
 
Chorus 
   1st Time 
e--------------|---------------------------------------------------| 
B--------------|---------------------------------------------------| 
G--------------|--3---3-----3---3-----3----------------------------| 
D------3brbp0--|--1---1-1-1-1---1-1-1-1--3-----3h5-----2-----3-----| 
A--0-0---------|--1---1-1-1-1---1-1-1-1------------------------5v--| 
D--0-0---------|--1---1-1-1-1---1-1-1-1----0-0-----0-0---0-0-------| 
 
                  "Stripped Me" 
                 (Slight Palm Mute) 
                |  Play 4x   |   Play 4x   | 
e---------------|------------|-------------| 
B---------------|------------|-------------| 
G--3---3-----3--|-------2-2--|-------------| 
D--1---1-1-1-1--|--0-0--0-0--|--0-0--0-----| 
A--1---1-1-1-1--|--0-0--0-0--|--0-0--0-5v--| 
D--1---1-1-1-1--|--0-0--0-0--|--0-0--0-----| 
 
Pre Solo       Play 2x             |                               |Repeat| 
e----------------------------------|-------------------------------|------| 
B---------18v--------18v------18v--|---------18v----------18v------|--18--| 
G---------x----------x--------x----|---------x------------x--------|--x---| 
D--0-0--0-15v-0-0--0-15v--0-0-15v--|--0-0--0-15v---0-0--0-15v-0-0--|--15--| 
A--0-0--0-----0-0--0------0-0------|--0-0--0-------0-0--0-----0-0--|------| 
D--0-0--0-----0-0--0------0-0------|--0-0--0-------0-0--0-----0-0--|------| 
 
Solo 2 Guitars 
Guitar 1 Play 3x 
e------------------------------------------------------------------ 
B------------------------------------------------------------------ 
G------------------------------------------------------------------ 
D--7--7-7-7h9-9-9-9p7--4--4-4-4h5-5-5-5p4-4v--4-4-4h5v-5-5-5p4v-0-- 
A--5--5-5-5---5-5-5----2--2-2-2---2-2-2---0---0-0-0----0-0-0------- 
D--5--5-5-5---5-5-5----2--2-2-2---2-2-2---0---0-0-0----0-0-0------- 
 
 
 
 
 
Note: I did not line up the 2 guitars. 
Guitar 2 (Only Play Once) 
e--------------------------------14-- 
B------3---------8-7-8/10---\7-8----- 
G--2/4---4---7/9--------------------- 
D------------------------------------ 
A------------------------------------ 
D------------------------------------ 
 
Key 
   p= Pull off 
   b= Bend 
   r= Release bend 
   v= Vibrate string 
   /= Slide