-------------------------------------------------------------------------------
                    WEAK - Asaf Avidan And The Mojos
-------------------------------------------------------------------------------
Tabbed by: Chai Ozeri
Email: [email protected]

Tuning: standard.

Verse 1:

e|-----------2---2-----------2---2-----------2---2-------2---2-------|
B|-----------3---3-----------3---3-----------3---3-------3---3-------|
G|-----------2---2-----------2---2-----------2---2-------2---2-------|
D|---0---------------0---------------0---------------0---------------|
A|-------------------------------------------------------------------|
E|-------------------------------------------------------------------|
     Speak,   baby speak,           tell me I'm     weak

e|-----------7---7-----------7---7-----------7---7-------7---7-------|
B|-----------8---8-----------8---8-----------8---8-------8---8-------|
G|-----------9---9-----------9---9-----------9---9-------9---9-------|
D|-------------------------------------------------------------------|
A|---7---------------7---------------7---------------7---------------|
E|-------------------------------------------------------------------|
    Tell me these promises   are  not mine   to keep

Tell me I'm ugly, but tell me you love me
Tell me you cannot go through this world without me

Chorus 1: (Strum the D,A,E strings hard)

e|-----------2---2-----------2---2-----------2---2-------2---2-------|
B|-----------3---3-----------3---3-----------3---3-------3---3-------|
G|-----------2---2-----------2---2-----------2---2-------2---2-------|
D|---0---------------0---------------0---------------0---------------|
A|---0---------------------------------------------------------------|
E|-------------------------------------------------------------------|
 Oh I'm,                            I'm,            I'm just a

e|-----------7---7-----------7---7-----------7---7-------7---7-------|
B|-----------8---8-----------8---8-----------8---8-------8---8-------|
G|-----------9---9-----------9---9-----------9---9-------9---9-------|
D|-------------------------------------------------------------------|
A|---7---------------7---------------7---------------7---------------|
E|---7---------------------------------------------------------------|
    tree

My roots are with her
but my leaves are with thee.

Verse 2: (play same as verse 1).
Heal, baby heal
Take all the time you will
I never thought I'd say this but I'm letting go of the bill
I don't wanna see
Your face here no more
Still that doesn't mean that I'm shutting the door

Chorus 2: (play same as chorus 1)
Oh I'm, I'm just a tree
My leaves are with her
But my roots are with thee

Bridge: (play same as chorus)
Oh oh, oh oh, oh oh oh oh, oh, oh, oh oh,
oh oh oh, oh oh, oh oh oh oh, oh, oh, oh.

* play verse 1 *

* play chorus 1 *

* play bridge *

The end:

e|---0---------------------------------------------------------------|
B|---1---------------------------------------------------------------|
G|---0---------------------------------------------------------------|
D|---2---------------------------------------------------------------|
A|---3---------------------------------------------------------------|
E|-------------------------------------------------------------------|
         I    know    these    words    are    tearing    you    a-

e|---0---------------------------------------------------------------|
B|---0---------------------------------------------------------------|
G|---0---------------------------------------------------------------|
D|---2---------------------------------------------------------------|
A|---2---------------------------------------------------------------|
E|---0---------------------------------------------------------------|
    -part.   Still    I    told    you,    right    from    the

e|---2-------0h2-----0h2------5--------------------------------------|
B|---3------------3-------3------------------------------------------|
G|---2---------------------------------------------------------------|
D|---0---------------------------------------------------------------|
A|---0---------------------------------------------------------------|
E|-------------------------------------------------------------------|
   start,                            this   is   how   our   little

e|---0---------------------------------------------------------------|
B|---1-----------------------------------------------------------1---|
G|---0--------------------------------------------------------0------|
D|---2---------------------------------------------------0h2---------|
A|---3---------------------------------------------------------------|
E|-------------------------------------------------------------------|
    song,         is    gonna    play    out

e|---0---------------------------------------------------------------|
B|---0---------------------------------------------------------------|
G|---0---------------------------------------------------------------|
D|---2---------------------------------------------------------------|
A|---2---------------------------------------------------------------|
E|---0---------------------------------------------------------------|



This song chords are very easy...

D Em

All over the song (intro, verses and chorus).

The end goes like this:

C                                  Em
I know these words are tearing you apart
                                  D
Still I told you, right from the start
                     C
This how our little song
                       Em
Is gonna play out.



- - -

cheers.


| /  slide up
| \  slide down
| h  hammer-on
| p  pull-off
| ~  vibrato
| +  harmonic
| x  Mute note

Articles liés :

Pin It on Pinterest

Spelling error report

The following text will be sent to our editors: