-------------------------------------------------------------------------------
                 RECKONING SONG - Asaf Avidan And The Mojos
-------------------------------------------------------------------------------
Tabbed by: Chai Ozeri
Email: [email protected]

Tuning: standard, capo on 6th fret!

OK so here is the intro of Reckoning Song. If you want it to sound like the origin, you 
to play it really fast.
Use your thumb for the D & A strings, and your 2nd, 3rd and 4th fingers for the G, B, e 
respectively.
Try hitting the D & A strings harder than the rest.

e|-----------------------------------------------------------------|
B|-----------------------------------------------------------------|
G|-----------------2-----------------------------------------------|
D|-----------------0h2---------------------------------------------|
A|---0-------------------------------------------------------------|
E|-----------------------------------------------------------------|

e|-------0-------0-------0-------0-------1-------1-------0-------0-|
B|-----1-------1-------1-------1-------1-------1-------1-------1---|
G|---2-------2-------2-------2-------2-------2-------2-------2-----|
D|---------2-------2-------2-------3-------3-------2-------2-------|
A|-0---------------------------------------------------------------|
E|-----------------------------------------------------------------|

e|-------0-------0-------0-------0-------0-------0-------0-------0-|
B|-----1-------1-------1-------1-------1-------1-------1-------1---|
G|---0-------0-------0-------0-------0-------0-------0-------0-----|
D|---------2-------2-------2p0-------------0-------0-------0-------|
A|-3-------------------------------2-------------------------------|
E|-----------------------------------------------------------------|

e|-------0-------0-------0-------0-------1-------1-------0-------0-|
B|-----1-------1-------1-------1-------1-------1-------1-------1---|
G|---2-------2-------2-------2-------2-------2-------2-------2-----|
D|---------2-------2-------2-------3-------3-------2-------2-------|
A|-0---------------------------------------------------------------|
E|-----------------------------------------------------------------|

e|-------0-------0-------0-------0-------0-------0-------0-------0-|
B|-----1-------1-------1-------1-------1-------1-------1-------1---|
G|---0-------0-------0-------0-------0-------0-------0-------0-----|
D|---------2p0-------------0---------------0---------------0-------|
A|-3---------------2---------------3---------------2---------------|
E|-----------------------------------------------------------------|

e|-------0---------------------------------------------------------|
B|-----1-----------------------------------------------------------|
G|---2-------------------------------------------------------------|
D|-----------------------------------------------------------------|
A|-0---------------------------------------------------------------|
E|-----------------------------------------------------------------|


The chords are simply the same over verses and chorus:
Am C Em F



that's it, enjoy...

| /  slide up
| \  slide down
| h  hammer-on
| p  pull-off
| ~  vibrato
| +  harmonic
| x  Mute note

Articles liés :

Pin It on Pinterest

Spelling error report

The following text will be sent to our editors: