+Live+ - Runtothewater

Live - Run to the water
=======================

e-0-------0-----0----------
B-1-------1-----1----------
G-0---0---2-----0----------
D-2---0---2-----2----------
A-3---2---0-----3----------
E-----3--------------------
  C   G   Am    C

Lead guitar
e--------------------------
B---------------5/6\5------
G--------------------------
  C   G   Am    C



C   G   Am    C
C   G   Am    C

C   G   Am        C
        Oh desert speak to my heart
C  G            Am     C
Oh woman of the earth, maker of children who weep for love
C     G       Am     C
Maker of this birth, 'til your deepest secrets are known to me
C          G  Am     C
I will not be moved
C          G  F
I will not be moved

[Pre-Chorus]
F            G
Dont try to find the answer
F                G
when there aint no question here
F                G
brother let your heart be wounded
F        G                Am     C
and give no mercy to your fear

C   G   Am       C
        Adam and Eve live down the street from me
C          G     Am         C
Babylon is every town, its as crazy as it's ever been
C                 G   F
Loves a stranger all around

[Pre-Chorus]
F           G
In a moment we lost our mind here
F       G
and lay our spirits down
F    /   /   /            G      /   /   /
Today we lived a thousand years
               C
all we have is now

[Chorus]
C          G
Run to the water
             Am
and find____ me there
F                         C
burnt to the core but not broken
C                     G
Well cut through the madness
                      F
of these streets be___low the moon
G                         Am       C
   these streets below______ the moon



C   G      Am      C
       And I_________ will never leave you
C    G      Am    C
til we can say, "this world was just a dream we were sleepin
C   G      Am        C
now we are awake___________"
C       G   F
til we can say

[Pre-Chorus]
F           G
In a moment we lost our mind here
F              G
and dreamt the world was round
F    /   /   /            G      /   /   /
a million mile fall from grace
                        C
Thank God we missed the ground

[Chorus]
C          G
Run to the water
             Am
and find____ me there
F                         C
burnt to the core but not broken
C                     G
Well cut through the madness
                      Am
of these streets be___low the moon
F
with a nuclear fire of love
       Am
in our hearts__________
G                  Am
yeah, I can see it now lord   out beyond all the
G                                    Am
breakin of waves   and the tribula__tion  its a place and the home of 
G                      G
ascended souls_____    who swam out there  in  love__________!

[Solo]
C   G   Am   F
C   G
F / / /
G / / /

  C               G               Am          F
e-8-----8-----8-8p7-----7-----7-8--------------------------------
B----8-----8---------8-----8--------10~~~~~~---------------------
G--------------------------------------------9-9-10~~~~~--9h10-9-
D----------------------------------------------------------------

  C               G                   F            G
e-----------------------------------------------------------------
B-----------------------------------------------------------------
G-----------------------------------------------------------------
D-10--10-10-10-12--------------10-12--14~~~~~~~~~--17~~~~~~~~~~---
A-----------------10--10-10-12------------------------------------
E-----------------------------------------------------------------

[Chorus]
D          A
Run to the water
             Bm
and find____ me there
G                         D
burnt to the core but not broken
D                     A
Well cut through the madness
                      Bm
of these streets be___low the moon
G                                  D
with a nuclear fire of love in our hearts__________
          A          Bm
rest easy baby, rest easy___
    G                             D
and recognize it all as light and rainbows
               A              Bm        G
smashed to smithereens and be happy____ yeah
D          A                 Bm         G
Run to the water and find___ me there   ooooh
D          A                 Bm         G
Run to the water___________________

D

Chords:
Tuning: Eb
C  x32010
G  320033 / 355433
Am x02210
F  133211
D  xx0232
A  x02220
Bm x24432

css.php